ISO-10303-21;
HEADER;
/* Generated by software containing ST-Developer
 * from STEP Tools, Inc. (www.steptools.com) 
 */

FILE_DESCRIPTION(
/* description */ (''),
/* implementation_level */ '2;1');

FILE_NAME(
/* name */ '\\\\SERVER1\\dwgs\\product\\Screws\\14224.stp',
/* time_stamp */ '2016-09-23T13:34:05-04:00',
/* author */ ('cridley'),
/* organization */ (''),
/* preprocessor_version */ 'ST-DEVELOPER v15.6',
/* originating_system */ 'Autodesk Inventor 2015',
/* authorisation */ '');

FILE_SCHEMA (('AUTOMOTIVE_DESIGN { 1 0 10303 214 3 1 1 }'));
ENDSEC;

DATA;
#10=MECHANICAL_DESIGN_GEOMETRIC_PRESENTATION_REPRESENTATION('',(#13),#283);
#11=SHAPE_REPRESENTATION_RELATIONSHIP('SRR','None',#295,#12);
#12=ADVANCED_BREP_SHAPE_REPRESENTATION($,(#14),#282);
#13=STYLED_ITEM('',(#304),#14);
#14=MANIFOLD_SOLID_BREP('Solid1',#161);
#15=CYLINDRICAL_SURFACE('',#180,0.2185);
#16=SPHERICAL_SURFACE('',#179,0.219);
#17=FACE_BOUND('',#48,.T.);
#18=FACE_BOUND('',#51,.T.);
#19=CONICAL_SURFACE('',#172,0.2035,45.);
#20=CONICAL_SURFACE('',#174,0.2035,45.);
#21=CONICAL_SURFACE('',#176,0.184182677471938,45.);
#22=CIRCLE('',#165,0.2185);
#23=CIRCLE('',#166,0.2185);
#24=CIRCLE('',#169,0.1885);
#25=CIRCLE('',#171,0.1885);
#26=CIRCLE('',#173,0.2185);
#27=CIRCLE('',#175,0.2185);
#28=CIRCLE('',#177,0.2185);
#29=CIRCLE('',#178,0.152682677471938);
#30=FACE_OUTER_BOUND('',#40,.T.);
#31=FACE_OUTER_BOUND('',#41,.T.);
#32=FACE_OUTER_BOUND('',#42,.T.);
#33=FACE_OUTER_BOUND('',#43,.T.);
#34=FACE_OUTER_BOUND('',#44,.T.);
#35=FACE_OUTER_BOUND('',#45,.T.);
#36=FACE_OUTER_BOUND('',#46,.T.);
#37=FACE_OUTER_BOUND('',#47,.T.);
#38=FACE_OUTER_BOUND('',#49,.T.);
#39=FACE_OUTER_BOUND('',#50,.T.);
#40=EDGE_LOOP('',(#106,#107,#108,#109,#110,#111));
#41=EDGE_LOOP('',(#112,#113,#114,#115));
#42=EDGE_LOOP('',(#116,#117,#118,#119,#120,#121));
#43=EDGE_LOOP('',(#122,#123));
#44=EDGE_LOOP('',(#124,#125));
#45=EDGE_LOOP('',(#126,#127,#128,#129));
#46=EDGE_LOOP('',(#130,#131,#132,#133));
#47=EDGE_LOOP('',(#134));
#48=EDGE_LOOP('',(#135));
#49=EDGE_LOOP('',(#136));
#50=EDGE_LOOP('',(#137,#138,#139,#140,#141,#142,#143,#144));
#51=EDGE_LOOP('',(#145));
#52=(
BOUNDED_CURVE()
B_SPLINE_CURVE(2,(#237,#238,#239),.UNSPECIFIED.,.F.,.F.)
B_SPLINE_CURVE_WITH_KNOTS((3,3),(0.,0.108634986784513),.UNSPECIFIED.)
CURVE()
GEOMETRIC_REPRESENTATION_ITEM()
RATIONAL_B_SPLINE_CURVE((1.,1.00281671734946,1.))
REPRESENTATION_ITEM('')
);
#53=(
BOUNDED_CURVE()
B_SPLINE_CURVE(2,(#242,#243,#244),.UNSPECIFIED.,.F.,.F.)
B_SPLINE_CURVE_WITH_KNOTS((3,3),(0.,0.108634986784513),.UNSPECIFIED.)
CURVE()
GEOMETRIC_REPRESENTATION_ITEM()
RATIONAL_B_SPLINE_CURVE((1.,1.00281671734946,1.))
REPRESENTATION_ITEM('')
);
#54=(
BOUNDED_CURVE()
B_SPLINE_CURVE(2,(#255,#256,#257),.UNSPECIFIED.,.F.,.F.)
B_SPLINE_CURVE_WITH_KNOTS((3,3),(0.,0.108634986784513),.UNSPECIFIED.)
CURVE()
GEOMETRIC_REPRESENTATION_ITEM()
RATIONAL_B_SPLINE_CURVE((1.,1.00281671734946,1.))
REPRESENTATION_ITEM('')
);
#55=(
BOUNDED_CURVE()
B_SPLINE_CURVE(2,(#261,#262,#263),.UNSPECIFIED.,.F.,.F.)
B_SPLINE_CURVE_WITH_KNOTS((3,3),(0.,0.108634986784513),.UNSPECIFIED.)
CURVE()
GEOMETRIC_REPRESENTATION_ITEM()
RATIONAL_B_SPLINE_CURVE((1.,1.00281671734946,1.))
REPRESENTATION_ITEM('')
);
#56=LINE('',#231,#64);
#57=LINE('',#233,#65);
#58=LINE('',#235,#66);
#59=LINE('',#241,#67);
#60=LINE('',#249,#68);
#61=LINE('',#253,#69);
#62=LINE('',#259,#70);
#63=LINE('',#264,#71);
#64=VECTOR('',#185,0.066);
#65=VECTOR('',#186,0.431027841328144);
#66=VECTOR('',#187,0.066);
#67=VECTOR('',#188,0.370060805814396);
#68=VECTOR('',#193,0.431027841328144);
#69=VECTOR('',#198,0.066);
#70=VECTOR('',#199,0.370060805814396);
#71=VECTOR('',#200,0.066);
#72=VERTEX_POINT('',#229);
#73=VERTEX_POINT('',#230);
#74=VERTEX_POINT('',#232);
#75=VERTEX_POINT('',#234);
#76=VERTEX_POINT('',#236);
#77=VERTEX_POINT('',#240);
#78=VERTEX_POINT('',#246);
#79=VERTEX_POINT('',#248);
#80=VERTEX_POINT('',#252);
#81=VERTEX_POINT('',#254);
#82=VERTEX_POINT('',#258);
#83=VERTEX_POINT('',#260);
#84=VERTEX_POINT('',#274);
#85=VERTEX_POINT('',#276);
#86=EDGE_CURVE('',#72,#73,#56,.T.);
#87=EDGE_CURVE('',#72,#74,#57,.T.);
#88=EDGE_CURVE('',#75,#74,#58,.T.);
#89=EDGE_CURVE('',#76,#75,#52,.T.);
#90=EDGE_CURVE('',#77,#76,#59,.T.);
#91=EDGE_CURVE('',#73,#77,#53,.T.);
#92=EDGE_CURVE('',#78,#72,#22,.T.);
#93=EDGE_CURVE('',#78,#79,#60,.T.);
#94=EDGE_CURVE('',#74,#79,#23,.T.);
#95=EDGE_CURVE('',#80,#78,#61,.T.);
#96=EDGE_CURVE('',#81,#80,#54,.T.);
#97=EDGE_CURVE('',#82,#81,#62,.T.);
#98=EDGE_CURVE('',#83,#82,#55,.T.);
#99=EDGE_CURVE('',#79,#83,#63,.T.);
#100=EDGE_CURVE('',#82,#81,#24,.T.);
#101=EDGE_CURVE('',#77,#76,#25,.T.);
#102=EDGE_CURVE('',#80,#83,#26,.T.);
#103=EDGE_CURVE('',#75,#73,#27,.T.);
#104=EDGE_CURVE('',#84,#84,#28,.T.);
#105=EDGE_CURVE('',#85,#85,#29,.T.);
#106=ORIENTED_EDGE('',*,*,#86,.F.);
#107=ORIENTED_EDGE('',*,*,#87,.T.);
#108=ORIENTED_EDGE('',*,*,#88,.F.);
#109=ORIENTED_EDGE('',*,*,#89,.F.);
#110=ORIENTED_EDGE('',*,*,#90,.F.);
#111=ORIENTED_EDGE('',*,*,#91,.F.);
#112=ORIENTED_EDGE('',*,*,#92,.F.);
#113=ORIENTED_EDGE('',*,*,#93,.T.);
#114=ORIENTED_EDGE('',*,*,#94,.F.);
#115=ORIENTED_EDGE('',*,*,#87,.F.);
#116=ORIENTED_EDGE('',*,*,#95,.F.);
#117=ORIENTED_EDGE('',*,*,#96,.F.);
#118=ORIENTED_EDGE('',*,*,#97,.F.);
#119=ORIENTED_EDGE('',*,*,#98,.F.);
#120=ORIENTED_EDGE('',*,*,#99,.F.);
#121=ORIENTED_EDGE('',*,*,#93,.F.);
#122=ORIENTED_EDGE('',*,*,#97,.T.);
#123=ORIENTED_EDGE('',*,*,#100,.F.);
#124=ORIENTED_EDGE('',*,*,#90,.T.);
#125=ORIENTED_EDGE('',*,*,#101,.F.);
#126=ORIENTED_EDGE('',*,*,#96,.T.);
#127=ORIENTED_EDGE('',*,*,#102,.T.);
#128=ORIENTED_EDGE('',*,*,#98,.T.);
#129=ORIENTED_EDGE('',*,*,#100,.T.);
#130=ORIENTED_EDGE('',*,*,#91,.T.);
#131=ORIENTED_EDGE('',*,*,#101,.T.);
#132=ORIENTED_EDGE('',*,*,#89,.T.);
#133=ORIENTED_EDGE('',*,*,#103,.T.);
#134=ORIENTED_EDGE('',*,*,#104,.F.);
#135=ORIENTED_EDGE('',*,*,#105,.T.);
#136=ORIENTED_EDGE('',*,*,#105,.F.);
#137=ORIENTED_EDGE('',*,*,#86,.T.);
#138=ORIENTED_EDGE('',*,*,#103,.F.);
#139=ORIENTED_EDGE('',*,*,#88,.T.);
#140=ORIENTED_EDGE('',*,*,#94,.T.);
#141=ORIENTED_EDGE('',*,*,#99,.T.);
#142=ORIENTED_EDGE('',*,*,#102,.F.);
#143=ORIENTED_EDGE('',*,*,#95,.T.);
#144=ORIENTED_EDGE('',*,*,#92,.T.);
#145=ORIENTED_EDGE('',*,*,#104,.T.);
#146=PLANE('',#163);
#147=PLANE('',#164);
#148=PLANE('',#167);
#149=PLANE('',#168);
#150=PLANE('',#170);
#151=ADVANCED_FACE('',(#30),#146,.F.);
#152=ADVANCED_FACE('',(#31),#147,.F.);
#153=ADVANCED_FACE('',(#32),#148,.F.);
#154=ADVANCED_FACE('',(#33),#149,.F.);
#155=ADVANCED_FACE('',(#34),#150,.F.);
#156=ADVANCED_FACE('',(#35),#19,.T.);
#157=ADVANCED_FACE('',(#36),#20,.T.);
#158=ADVANCED_FACE('',(#37,#17),#21,.T.);
#159=ADVANCED_FACE('',(#38),#16,.T.);
#160=ADVANCED_FACE('',(#39,#18),#15,.T.);
#161=CLOSED_SHELL('',(#151,#152,#153,#154,#155,#156,#157,#158,#159,#160));
#162=AXIS2_PLACEMENT_3D('placement',#227,#181,#182);
#163=AXIS2_PLACEMENT_3D('',#228,#183,#184);
#164=AXIS2_PLACEMENT_3D('',#245,#189,#190);
#165=AXIS2_PLACEMENT_3D('',#247,#191,#192);
#166=AXIS2_PLACEMENT_3D('',#250,#194,#195);
#167=AXIS2_PLACEMENT_3D('',#251,#196,#197);
#168=AXIS2_PLACEMENT_3D('',#265,#201,#202);
#169=AXIS2_PLACEMENT_3D('',#266,#203,#204);
#170=AXIS2_PLACEMENT_3D('',#267,#205,#206);
#171=AXIS2_PLACEMENT_3D('',#268,#207,#208);
#172=AXIS2_PLACEMENT_3D('',#269,#209,#210);
#173=AXIS2_PLACEMENT_3D('',#270,#211,#212);
#174=AXIS2_PLACEMENT_3D('',#271,#213,#214);
#175=AXIS2_PLACEMENT_3D('',#272,#215,#216);
#176=AXIS2_PLACEMENT_3D('',#273,#217,#218);
#177=AXIS2_PLACEMENT_3D('',#275,#219,#220);
#178=AXIS2_PLACEMENT_3D('',#277,#221,#222);
#179=AXIS2_PLACEMENT_3D('',#278,#223,#224);
#180=AXIS2_PLACEMENT_3D('',#279,#225,#226);
#181=DIRECTION('axis',(0.,0.,1.));
#182=DIRECTION('refdir',(1.,0.,0.));
#183=DIRECTION('center_axis',(1.,0.,-1.70740499604016E-16));
#184=DIRECTION('ref_axis',(-1.76247905159244E-16,0.,-1.));
#185=DIRECTION('',(0.,0.,1.));
#186=DIRECTION('',(0.,-1.,0.));
#187=DIRECTION('',(0.,0.,-1.));
#188=DIRECTION('',(0.,-1.,0.));
#189=DIRECTION('center_axis',(0.,0.,-1.));
#190=DIRECTION('ref_axis',(-1.,0.,0.));
#191=DIRECTION('center_axis',(0.,0.,-1.));
#192=DIRECTION('ref_axis',(-1.,0.,0.));
#193=DIRECTION('',(0.,-1.,0.));
#194=DIRECTION('center_axis',(0.,0.,-1.));
#195=DIRECTION('ref_axis',(-1.,0.,0.));
#196=DIRECTION('center_axis',(-1.,0.,5.69134998680055E-17));
#197=DIRECTION('ref_axis',(5.28743715477731E-17,0.,1.));
#198=DIRECTION('',(0.,0.,-1.));
#199=DIRECTION('',(0.,1.,0.));
#200=DIRECTION('',(0.,0.,1.));
#201=DIRECTION('center_axis',(0.,0.,-1.));
#202=DIRECTION('ref_axis',(-1.,0.,0.));
#203=DIRECTION('center_axis',(0.,0.,-1.));
#204=DIRECTION('ref_axis',(-1.,0.,0.));
#205=DIRECTION('center_axis',(0.,0.,-1.));
#206=DIRECTION('ref_axis',(-1.,0.,0.));
#207=DIRECTION('center_axis',(0.,0.,-1.));
#208=DIRECTION('ref_axis',(-1.,0.,0.));
#209=DIRECTION('center_axis',(0.,0.,-1.));
#210=DIRECTION('ref_axis',(-1.,0.,0.));
#211=DIRECTION('center_axis',(0.,0.,1.));
#212=DIRECTION('ref_axis',(-1.,0.,0.));
#213=DIRECTION('center_axis',(0.,0.,-1.));
#214=DIRECTION('ref_axis',(-1.,0.,0.));
#215=DIRECTION('center_axis',(0.,0.,1.));
#216=DIRECTION('ref_axis',(-1.,0.,0.));
#217=DIRECTION('center_axis',(0.,0.,1.));
#218=DIRECTION('ref_axis',(-1.,0.,0.));
#219=DIRECTION('center_axis',(0.,0.,1.));
#220=DIRECTION('ref_axis',(-1.,0.,0.));
#221=DIRECTION('center_axis',(0.,0.,1.));
#222=DIRECTION('ref_axis',(-1.,0.,0.));
#223=DIRECTION('center_axis',(6.12323399573677E-17,0.,1.));
#224=DIRECTION('ref_axis',(1.,0.,0.));
#225=DIRECTION('center_axis',(0.,0.,-1.));
#226=DIRECTION('ref_axis',(-1.,0.,0.));
#227=CARTESIAN_POINT('',(0.,0.,0.));
#228=CARTESIAN_POINT('Origin',(0.036,0.,0.));
#229=CARTESIAN_POINT('',(0.036,0.215513920664072,-0.096));
#230=CARTESIAN_POINT('',(0.036,0.215513920664072,-0.03));
#231=CARTESIAN_POINT('',(0.036,0.215513920664072,0.));
#232=CARTESIAN_POINT('',(0.036,-0.215513920664072,-0.096));
#233=CARTESIAN_POINT('',(0.036,0.,-0.096));
#234=CARTESIAN_POINT('',(0.036,-0.215513920664072,-0.03));
#235=CARTESIAN_POINT('',(0.036,-0.215513920664072,0.));
#236=CARTESIAN_POINT('',(0.036,-0.185030402907198,0.));
#237=CARTESIAN_POINT('Ctrl Pts',(0.036,-0.185030402907198,0.));
#238=CARTESIAN_POINT('Ctrl Pts',(0.036,-0.19914869061523,-0.0138584215542546));
#239=CARTESIAN_POINT('Ctrl Pts',(0.036,-0.215513920664072,-0.03));
#240=CARTESIAN_POINT('',(0.036,0.185030402907198,0.));
#241=CARTESIAN_POINT('',(0.036,0.,0.));
#242=CARTESIAN_POINT('Ctrl Pts',(0.036,0.215513920664072,-0.03));
#243=CARTESIAN_POINT('Ctrl Pts',(0.036,0.19914869061523,-0.0138584215542546));
#244=CARTESIAN_POINT('Ctrl Pts',(0.036,0.185030402907198,0.));
#245=CARTESIAN_POINT('Origin',(0.036,0.,-0.096));
#246=CARTESIAN_POINT('',(-0.036,0.215513920664072,-0.096));
#247=CARTESIAN_POINT('Origin',(0.,0.,-0.096));
#248=CARTESIAN_POINT('',(-0.036,-0.215513920664072,-0.096));
#249=CARTESIAN_POINT('',(-0.036,0.,-0.096));
#250=CARTESIAN_POINT('Origin',(0.,0.,-0.096));
#251=CARTESIAN_POINT('Origin',(-0.036,0.,-0.096));
#252=CARTESIAN_POINT('',(-0.036,0.215513920664072,-0.03));
#253=CARTESIAN_POINT('',(-0.036,0.215513920664072,0.));
#254=CARTESIAN_POINT('',(-0.036,0.185030402907198,0.));
#255=CARTESIAN_POINT('Ctrl Pts',(-0.036,0.185030402907198,0.));
#256=CARTESIAN_POINT('Ctrl Pts',(-0.036,0.19914869061523,-0.0138584215542546));
#257=CARTESIAN_POINT('Ctrl Pts',(-0.036,0.215513920664072,-0.03));
#258=CARTESIAN_POINT('',(-0.036,-0.185030402907198,0.));
#259=CARTESIAN_POINT('',(-0.036,0.,0.));
#260=CARTESIAN_POINT('',(-0.036,-0.215513920664072,-0.03));
#261=CARTESIAN_POINT('Ctrl Pts',(-0.036,-0.215513920664072,-0.03));
#262=CARTESIAN_POINT('Ctrl Pts',(-0.036,-0.19914869061523,-0.0138584215542546));
#263=CARTESIAN_POINT('Ctrl Pts',(-0.036,-0.185030402907198,0.));
#264=CARTESIAN_POINT('',(-0.036,-0.215513920664072,0.));
#265=CARTESIAN_POINT('Origin',(0.,0.,0.));
#266=CARTESIAN_POINT('Origin',(0.,0.,0.));
#267=CARTESIAN_POINT('Origin',(0.,0.,0.));
#268=CARTESIAN_POINT('Origin',(0.,0.,0.));
#269=CARTESIAN_POINT('Origin',(0.,0.,-0.015));
#270=CARTESIAN_POINT('Origin',(0.,0.,-0.03));
#271=CARTESIAN_POINT('Origin',(0.,0.,-0.015));
#272=CARTESIAN_POINT('Origin',(0.,0.,-0.03));
#273=CARTESIAN_POINT('Origin',(0.,0.,-0.2815));
#274=CARTESIAN_POINT('',(0.2185,2.67576488310189E-17,-0.247182677471938));
#275=CARTESIAN_POINT('Origin',(0.,0.,-0.247182677471938));
#276=CARTESIAN_POINT('',(-0.152682677471938,0.,-0.313));
#277=CARTESIAN_POINT('Origin',(0.,0.,-0.313));
#278=CARTESIAN_POINT('Origin',(0.,0.,-0.156));
#279=CARTESIAN_POINT('Origin',(0.,0.,0.));
#280=UNCERTAINTY_MEASURE_WITH_UNIT(LENGTH_MEASURE(0.000393700787401575),
#284,'DISTANCE_ACCURACY_VALUE',
'Maximum model space distance between geometric entities at asserted c
onnectivities');
#281=UNCERTAINTY_MEASURE_WITH_UNIT(LENGTH_MEASURE(1.E-6),#285,
'DISTANCE_ACCURACY_VALUE',
'Maximum model space distance between geometric entities at asserted c
onnectivities');
#282=(
GEOMETRIC_REPRESENTATION_CONTEXT(3)
GLOBAL_UNCERTAINTY_ASSIGNED_CONTEXT((#280))
GLOBAL_UNIT_ASSIGNED_CONTEXT((#284,#290,#287))
REPRESENTATION_CONTEXT('','3D')
);
#283=(
GEOMETRIC_REPRESENTATION_CONTEXT(3)
GLOBAL_UNCERTAINTY_ASSIGNED_CONTEXT((#281))
GLOBAL_UNIT_ASSIGNED_CONTEXT((#285,#290,#287))
REPRESENTATION_CONTEXT('','3D')
);
#284=(
CONVERSION_BASED_UNIT('__CONSTANT UNIT inch',#286)
LENGTH_UNIT()
NAMED_UNIT(#289)
);
#285=(
LENGTH_UNIT()
NAMED_UNIT(*)
SI_UNIT(.MILLI.,.METRE.)
);
#286=LENGTH_MEASURE_WITH_UNIT(LENGTH_MEASURE(25.4),#285);
#287=(
NAMED_UNIT(*)
SI_UNIT($,.STERADIAN.)
SOLID_ANGLE_UNIT()
);
#288=DIMENSIONAL_EXPONENTS(0.,0.,0.,0.,0.,0.,0.);
#289=DIMENSIONAL_EXPONENTS(1.,0.,0.,0.,0.,0.,0.);
#290=(
CONVERSION_BASED_UNIT('degree',#292)
NAMED_UNIT(#288)
PLANE_ANGLE_UNIT()
);
#291=(
NAMED_UNIT(*)
PLANE_ANGLE_UNIT()
SI_UNIT($,.RADIAN.)
);
#292=PLANE_ANGLE_MEASURE_WITH_UNIT(PLANE_ANGLE_MEASURE(0.01745329252),#291);
#293=SHAPE_DEFINITION_REPRESENTATION(#294,#295);
#294=PRODUCT_DEFINITION_SHAPE('',$,#297);
#295=SHAPE_REPRESENTATION('',(#162),#282);
#296=PRODUCT_DEFINITION_CONTEXT('part definition',#301,'design');
#297=PRODUCT_DEFINITION('14224','14224',#298,#296);
#298=PRODUCT_DEFINITION_FORMATION('',$,#303);
#299=PRODUCT_RELATED_PRODUCT_CATEGORY('14224','14224',(#303));
#300=APPLICATION_PROTOCOL_DEFINITION('international standard',
'automotive_design',2009,#301);
#301=APPLICATION_CONTEXT(
'Core Data for Automotive Mechanical Design Process');
#302=PRODUCT_CONTEXT('part definition',#301,'mechanical');
#303=PRODUCT('14224','14224',$,(#302));
#304=PRESENTATION_STYLE_ASSIGNMENT((#305));
#305=SURFACE_STYLE_USAGE(.BOTH.,#306);
#306=SURFACE_SIDE_STYLE($,(#307));
#307=SURFACE_STYLE_FILL_AREA(#308);
#308=FILL_AREA_STYLE($,(#309));
#309=FILL_AREA_STYLE_COLOUR($,#310);
#310=COLOUR_RGB('',1.,1.,1.);
ENDSEC;
END-ISO-10303-21;
